Busca tu Partitura o ve al Índice

jueves, 17 de febrero de 2011

Te quiero igual de Andrés Calamaro. Canciones de "Buena Onda". Partitura.

Una de tantas canciones que me enamoran de Andrés Calamaro "Te quiero igual". Me encantan las canciones de este músico, compositor, cantante y productor argentino que perteneciera hace tiempo al conocido grupo "Los Rodríguez".

Mis canciones favoritas de Calamaro son principalmente las que aparecen en el primer CD de su album "Honestidad Brutal", que durante años he escuchado sin parar y que todavía escucho.

El disco salió en 1999 y entre sus canciones, me gustan principalmente El Día Mundial de la Mujer, La parte de adelante, Cuando te conocí y en realidad todo el disco.




Y un directo.



E--------------|
      B--------------|
      G-----0-----0--|
      D---2-----2----|
      A-3-----2------|
      E--------------|
                    X2
      E-----------------------------------|------------------|
      B-----------------------------------|------------------|
      G-4-2-4-7-5-4-2-0--0-2-4-5-4--------|---4----4-2---2-0-|
      D-----------------------------0-2-0-|-0---0------0-----|
      A-----------------------------------|------------------|
      E-----------------------------------|------------------|

      E----------------|
      B----------------|
      G-0------0-----0-|
      D------2-----2---|
      A----3-----2-----|
      E----------------|


G              D/F#           Em           C
Te quiero pero te llevaste la flor y me dejaste el florero,
         G     D/F#        Em           C
te quiero me dejaste la ceniza y te llevaste el cenicero,
         G     D/F#        Em           C
te quiero pero te llevaste marzo y te rendiste en febrero,

   G       D/F#   G
Primero te quiero igual.

E--------------------------|
B--------------------------|
G-----0-----0----------0---|
D---2-----2----------4---4-|
A-3-----2-----0----5-------|
E--------------------------|


G              D/F#          Em           C
Te quiero , te llevaste la cabeza y me dejaste el sombrero,
         G     D/F#         Em            C
te quiero pero te olvidaste abril en el ropero pero igual,
         G       D/F#    Em           C
te quiero  no me gusta esperar pero igual te espero,

   G       D/F#   G
Primero te quiero igual.

E--------------|
B--------------|
G-----0-----0--|
D---2-----2----|
A-3-----2------|
E--------------|


G             D/F#         Em            C
Te quiero me dejaste el florero y te llevaste la flor pero igual,
         G      D/F#        Em           C
te quiero. me dejaste el vestido y te llevaste el amor,
    G          D/F#          Em           C
te quiero pero te olvidaste abril en el ropero,

   G       D/F#   G
Primero te quiero igual .

E--------------------------|
B--------------------------|
G-----0-----0----------0---|
D---2-----2----------4---4-|
A-3-----2-----0----5-------|
E--------------------------|


C  G   C       G              C       G      D
No sé si estoy despierto o tengo los ojos abiertos
C  G         C     G          C       G      D
No sé si estoy despierto o tengo los ojos abiertos

   G           D/F#            Em            C
Te quiero, no sé si estoy despierto o tengo los ojos abiertos,
G      D/F#               Em      C
sé que te quiero y que me esperan más aeropuertos,
    G         D/F#         Em       C
te quiero te llevaste la vela y me dejaste el entierro,

   G       D/F#   G
Primero te quiero igual.


  G     D/F#   Em        C        x3  G       D     G
E-----------------------------------|------------------|
B-----------------------------------|------------------|
G-4-2-4-7-5-4-2-0--0-2-4-5-4--------|---4----4-2---2-0-|
D-----------------------------0-2-0-|-0---0------0-----|
A-----------------------------------|------------------|
E-----------------------------------|------------------|
 Ahhh…           Ahhhh…


G                        D       C  (mientras toca el piano)


G              D/F#           Em           C
Te quiero pero te llevaste la flor y me dejaste el florero,
         G     D/F#        Em           C
te quiero me dejaste la ceniza y te llevaste el cenicero,
         G     D/F#        Em           C
te quiero pero te llevaste marzo y te rendiste en febrero,

   G       D/F#   G
Primero te quiero igual.


  E--------------3-|
  B--------------0-|
  G-----0-----0--0-|
  D---2-----2----0-|
  A-3-----2------2-|
  E--------------3-|
Aquí tenéis su Sitio Web Oficial
No sé si os servirá pero encontré esta partitura que aunque se ve muy mal, igual os sirve para tomar las referencias de las notas. Un saludo.
Un saludo.
Más acordes en español pinchando aquí .

2 comentarios :

  1. Oye sería super si pudieras sacar la partitura para esta canción.... me encanta =) tu blog está deacachimba!

    ResponderEliminar
  2. Buenas Anónio.

    Haz una sugerencia (arriba en pestañas) y ya veremos. Ahora mismo no puedo escribir, pero es una de mis canciones preferidas de toda la vida. Así que es posible que la escriba.

    A ver si hay suerte.

    ResponderEliminar

¿Te han gustado nuestras partituras? Por favor, ayúdanos compartiéndo con tus amigos/as. Cliquea en el botón de Me gusta de Facebook o al de Retweet de Twitter. Gracias por apoyarnos.

Puedes colaborar en el blog aunque no sepas escribir partituras. ¡Infórmate!

Recibimos decenas mensajes diarios que NO PODEMOS CONTESTARLOS TODOS. Ruego entienda que es imposible. ¡Gracias!