sábado, 18 de diciembre de 2010

El que quiera entender... que entienda de Mago de Oz

Una de mis canciones preferidas de Mago de Oz, grupo formado en Madrid en 1988.
El que quiera entender...que entienda pertenece al disco Finisterra y me gusta sobre todo para tocar con el piano.

Mago de Oz, introduce en la canción flauta, violín, y el clavecín, el cual le da cierto aire barroco mezclado con  potentes bases de guitarra, bajo y batería.
Simplemente espectacular.


Aquí tenéis un directo que está de lujo.



A continuación podréis encontrar la letra y acordes, además de su página Web oficial .

La intro que suena con Clavecín y que se repite a lo largo de la canción ess la siguiente (en la 1º cuerda):

e/----0----8----7---5-5-5-5-5-5-5-5-----------------------------
B/--------------------------------------------------------------
G/--------------------------------------------------------------

e/----0----8----7---5-5-5-5-5-5-5-5----------------------------
B/--------------------------------------------------------------
G/--------------------------------------------------------------

e/----0----8----7---5---3----1----0--0-0------------------------
B/--------------------------------------------------------------
G/--------------------------------------------------------------
[se repite cuatro veces]

Acordes de la canción:

   Am5    (C5)     (G5)    (D5)     (E5)      (F5)    (B5)
G/------/--5---/-----/--7---/--9---/--10--/-----/
D/--7---/--5---/--5--/--7---/--9---/--10--/--9--/
A/--7---/--3---/--5--/--5---/--7---/--8---/--9--/
E/--5---/------/--3--/------/------/------/--7--/


Am5              (C5)
Cuanto he de esperar?
(C5)            (G5)
Para al fin poder hallar
  Am5            (C5)
La otra mitad de Mi 
     (C5)             (D5)
Que me acompañe a vivir

 Am5                  (C5)
Nadé el tiempo en un mar
  (C5)                 (G5)
De apariencias y ahogué el amor
Am5         (C5)
No se puede ocultar
  (C5)              (D5)
El perfume de una flor

(D5) (E5) (F5)           (C5)
Cuanto me cuesta sobrevivir
 (D)         (C5)
Cuanto sonreír
(D5) (E5) (F5)              (C5)
Sin poder quitarme el antifaz
    (D5)               (E5)
Que me disfraza de normal

    Am5
Y volveré a buscarte
           (C5)
Allí hasta donde estés
          (C5)
Tan solo quiero amarte
         (G5)
Y poder tener

           Am5
Alguien en que apoyarme
             (C5)
Alguien en quien buscar
         (C5)
Todo el amor que cercenó
         (D5)
El que dirán


(Am)                  (C)
No más miedo a entregar
 (C)                (G)
Mis labios sin entes mirar
(Am)                   (C)
No más miedo a acariciar
(C)                    (D)
Nuestros cuerpos y soñar

 Am5         (C5)
Y ala mierda con
(C5)          (G5)
El armario y el diván
(Am)          (C5)
Si hay que luchar
  (C5)         (D5)
Luchar es educar

(D5) (E5) (F5)           (C5)
Que en asuntos del corazón
    (D5)            (C5)
No hay reglas de dos
(D5) (E5) (F5)              (C5)
Que somos distintos, somos iguales
(D5)             (E5)
No mas retos alza la voz


Y volveré a buscarte...

Alguien en que apoyarme...


Empieza la flauta y el violín y después el solo de flauta.
 
Sique este intro: Am5 (C5) C5 (B5) Am5 (G5)


Am5                (C5)
Y cuando llegue el final
(C5)          (G5)
El otoño de nuestro amor
Am5        (C5)
Yo te esperaré
          (C5)               (D5)
Mientras vive y lucha por tener

Am5          (C5)
Derecho a elegir
     (C5)                     (G5)
Con que cabeza tu almohada compartir
Am5                    (C5)
Orgulloso de ser quien eres
  (C5)               (D5)
Y no como deberías ser


Cuanto me cuesta sobrevivir...

Y volveré a buscarte...

Alguien en que apoyarme...


Y volveré a buscarte...

Alguien en que apoyarme...

Y volveré a buscarte...

Alguien en que apoyarme...

Si queréis un estudio más exhautivo de la canción y tocarla tal cual, aquí os dejo las Tabulaciones de "El que quiera entender que entienda" de Mago de Oz.
 
INTRO BARROCA [00:39]:             
                                      x3   
e|--------------------------------------|---------------|
B|-------13--12--10h12p10h12p10h12p10---|---8---6---5---|
G|---12---------------------------------|---------------| x2
D|--------------------------------------|---------------|
A|--------------------------------------|---------------|
E|--------------------------------------|---------------|


INTRO ELÉCTRICA + RITMO DEL VERSO [00:52]:
              x3  
e|--------------------------|------------------|
B|-------13--12--10--(10)^--|---8^---6^---5^---|
G|---12---------------------|------------------|
D|--------------------------|------------------|
A|--------------------------|------------------|
E|--------------------------|------------------|

e|--------------------------|------------------------------------------------|
B|-------13--12--10--(10)^--|-------13--15--15/17^--15^--13^--12^------------|
G|---12---------------------|---12-------------------------------------------|
D|--------------------------|------------------------------------------------|
A|--------------------------|------------------------------------------------|
E|--------------------------|------------------------------------------------|


VERSO [01:05] x2:

e|--------------------------|------------------------------------------------|
B|--------------------------|------------------------------------------------|
G|---------5-----5----------|---------5-----5-----7--------------------------|
D|---7-----5-----5-----5----|---7-----5-----5-----7--------------------------|
A|---7-----3-----3-----5----|---7-----3-----3-----5--------------------------|
E|---5-----------------3----|---5--------------------------------------------|
     LA    DO    DO    SOL      LA    DO    DO    RE

Cuánto ha ....

Nadé ...


PUENTE [01:30]:

e|---------------------------------------------------------------------------|
B|---------------------------------------------------------------------------|
G|---7---9--10---------------------------------------------------------------|
D|---7---9--10-----10-----12-----10---9---7----------------------------------|
A|---5---7---8-----10-----12-----10---9---7----------------------------------|
E|------------------8-----10------8---7---5----------------------------------|
     RE  MI  FA    DO     RE     DO   SI  LA


e|---------------------------------------------------------------------------|
B|---------------------------------------------------------------------------|
G|---7---9--10---------------------------------------------------------------|
D|---7---9--10-----10-----12-----14------------------------------------------|
A|---5---7---8-----10-----12-----14------------------------------------------|
E|------------------8-----10-----12------------------------------------------|
     RE  MI  FA    DO     RE     MI   

Cuánto me ...


ESTRIBILLO [01:42]:

e|--------------------------|------------------------------------------------|
B|--------------------------|------------------------------------------------|
G|---------------5----------|---------------5-----7--------------------------|
D|---7-----3-----5-----5----|---7-----3-----5-----7--------------------------|
A|---7-----3-----3-----5----|---7-----3-----3-----5--------------------------|
E|---5-----1-----------3----|---5-----1--------------------------------------|
     LA    FA    DO    SOL      LA    FA    DO    RE

Y volveré ...

INTRO [01:55]

TRANSICIÓN [02:08]:

e|---------------------------------------------------------------------------|
B|---------------------------------------------------------------------------|
G|--------------------5---5--------5---5-------------------------------------|
D|-------7---7------5---5--------5---5----------5---5------------------------|
A|-----7---7------3------------3--------------5---5--------------------------|
E|---5--------------------------------------3--------------------------------|
     LA           DO           DO           SOL


e|---------------------------------------------------------------------------|
B|---------------------------------------------------------------------------|
G|--------------------5---5--------5---5--------7---7------------------------|
D|-------7---7------5---5--------5---5--------7---7--------------------------|
A|-----7---7------3------------3------------5--------------------------------|
E|---5-----------------------------------------------------------------------|
     LA           DO           DO           RE

No más ...


VERSO [02:33]:

A la mierda ...


PUENTE [02:45]:

Que en asuntos ...

ESTRIBILLO [02:58]

Y volveré ...

INTRO [03:11]

FOLK INSTRUMENTAL [03:24]

SOLO [04:26]


VERSO [04:56]:

e|-----------------------------|---------------------------------------------|
B|-----------------------------|---------------------------------------------|
G|---------5-----5-------------|---------5-----5-----7-----------------------|
D|---7-----5-----5-----5-------|---7-----5-----5-----7-----------------------|
A|---7-----3-xxx-3-xxx-5-------|---7-----3-xxx-3-xxx-5-----------------------|
E|---5-xxx-------------3-xxx---|---5-xxx-------------------------------------|
     LA    DO    DO    SOL         LA    DO    DO    RE

Y cuando ...


PUENTE [05:27]:

Cuanto me ...


ESTRIBILLO [05:40]:

Y volveré ...


RITMO FINAL [06:19]:

e|-------------------------------------|
B|-------------------------------------|
G|-------------------5-----------------|
D|---7-------3-------5-------5---------|
A|---7-------3-x x x-3-x x x-5---------|
E|---5-x x x-1---------------3-x x x---|
     LA      FA      DO      SOL      
Tabulaciones extraídas de:   
Letra y acordes extraídos de Tusacordes.com.
Si queréis visitar su web oficial pinchad en la foto.



5 comentarios :

  1. Yo kiero la partitura para flauta Dulce (a mi hotmail porfas: thebenja-sabinillas@hotmail.cl)

    ResponderEliminar
    Respuestas
    1. Buenas Anónimo.
      Lo siento, pero esta partitura no la tengo. En el blog puedes encontrar la partitura de Fiesta Pagana de Mago de Oz, igual te sirve. Un saludo y gracias por comentar.
      http://diegosax.blogspot.com.es/2011/03/fiesta-pagana-de-mago-de-oz-partitura.html

      Eliminar
  2. si puedes por favor, conseguir "El Que Quiera Entender Que Entienda" en flauta traversa, gracias c;

    ResponderEliminar
    Respuestas
    1. Hola Anónimo.

      Recientemente contacté un colaborador que está haciendo un arreglo de Mago de Oz, y no recuerdo si es esta partitura, saldrá publicada en unas semanas. Le recomendaré esta canción que pides a ver si le gusta y saca una adaptación.

      Gracias por comentar y suerte con la flauta, aquí tienes más de 200 partituras de flauta, por si te sirven: http://www.tocapartituras.com/2013/04/partituras-de-flauta-1000-partituras-musicales.html

      Un saludo!

      Eliminar
  3. hola quisera tener la partitura de este tema para teclado si es posible, mi correo es nicolas2soto@hotmail.com
    gracias

    ResponderEliminar

¿Te han gustado nuestras partituras? Por favor, ayúdanos compartiéndo con tus amigos/as. Cliquea en el botón de Me gusta de Facebook o al de Retweet de Twitter. Gracias por apoyarnos.

Puedes colaborar en el blog aunque no sepas escribir partituras. ¡Infórmate!

Recibimos decenas mensajes diarios que NO PODEMOS CONTESTARLOS TODOS. Ruego entienda que es imposible. ¡Gracias!